ISO-10303-21;
HEADER;
FILE_DESCRIPTION (( 'STEP AP203' ),
    '1' );
FILE_NAME ('Q-QZWP-R4-10-488-M.STEP',
    '2020-12-23T01:22:01',
    ( '' ),
    ( '' ),
    'SwSTEP 2.0',
    'SolidWorks 2020',
    '' );
FILE_SCHEMA (( 'CONFIG_CONTROL_DESIGN' ));
ENDSEC;

DATA;
#1 = DIRECTION ( 'NONE',  ( -1.000000000000000000, -0.000000000000000000, -0.000000000000000000 ) ) ;
#2 = CC_DESIGN_APPROVAL ( #233, ( #92 ) ) ;
#3 = PERSON_AND_ORGANIZATION_ROLE ( 'classification_officer' ) ;
#4 = MECHANICAL_CONTEXT ( 'NONE', #232, 'mechanical' ) ;
#5 = EDGE_CURVE ( 'NONE', #12, #215, #114, .T. ) ;
#6 = COORDINATED_UNIVERSAL_TIME_OFFSET ( 8, 0, .AHEAD. ) ;
#7 = LOCAL_TIME ( 9, 22, 1.000000000000000000, #207 ) ;
#8 = EDGE_CURVE ( 'NONE', #67, #304, #31, .T. ) ;
#9 = PERSON_AND_ORGANIZATION ( #268, #206 ) ;
#10 = DIRECTION ( 'NONE',  ( -0.000000000000000000, 0.000000000000000000, 1.000000000000000000 ) ) ;
#11 = CARTESIAN_POINT ( 'NONE',  ( 3.000000000000000000, 0.000000000000000000, 0.000000000000000000 ) ) ;
#12 = VERTEX_POINT ( 'NONE', #325 ) ;
#13 = FACE_BOUND ( 'NONE', #62, .T. ) ;
#14 = ORIENTED_EDGE ( 'NONE', *, *, #58, .T. ) ;
#15 = CARTESIAN_POINT ( 'NONE',  ( -1.614212418857619014, 0.000000000000000000, 5.000000000000000888 ) ) ;
#16 = VERTEX_POINT ( 'NONE', #164 ) ;
#17 = CARTESIAN_POINT ( 'NONE',  ( 3.000000000000000000, 1.555301434917138433E-15, -12.69999999999999929 ) ) ;
#18 = AXIS2_PLACEMENT_3D ( 'NONE', #266, #210, #182 ) ;
#19 = VERTEX_POINT ( 'NONE', #329 ) ;
#20 = CYLINDRICAL_SURFACE ( 'NONE', #135, 5.000000000000000888 ) ;
#21 = DIRECTION ( 'NONE',  ( 0.000000000000000000, 0.000000000000000000, -1.000000000000000000 ) ) ;
#22 = DIRECTION ( 'NONE',  ( -1.000000000000000000, -0.000000000000000000, -0.000000000000000000 ) ) ;
#23 = FACE_OUTER_BOUND ( 'NONE', #198, .T. ) ;
#24 = AXIS2_PLACEMENT_3D ( 'NONE', #245, #145, #220 ) ;
#25 = APPROVAL_ROLE ( '' ) ;
#26 = CIRCLE ( 'NONE', #122, 5.000000000000001776 ) ;
#27 = APPLICATION_PROTOCOL_DEFINITION ( 'international standard', 'config_control_design', 1994, #271 ) ;
#28 = CC_DESIGN_PERSON_AND_ORGANIZATION_ASSIGNMENT ( #320, #83, ( #92 ) ) ;
#29 = CLOSED_SHELL ( 'NONE', ( #113, #299, #33, #66, #218, #191, #240, #121, #146, #258 ) ) ;
#30 = SHAPE_DEFINITION_REPRESENTATION ( #81, #48 ) ;
#31 = LINE ( 'NONE', #34, #112 ) ;
#32 = VERTEX_POINT ( 'NONE', #192 ) ;
#33 = ADVANCED_FACE ( 'NONE', ( #65 ), #124, .F. ) ;
#34 = CARTESIAN_POINT ( 'NONE',  ( -1.614212418857619014, 0.000000000000000000, 12.69999999999999929 ) ) ;
#35 = ORIENTED_EDGE ( 'NONE', *, *, #71, .F. ) ;
#36 = CARTESIAN_POINT ( 'NONE',  ( -1.614212418857619014, 0.000000000000000000, 0.000000000000000000 ) ) ;
#37 = ORIENTED_EDGE ( 'NONE', *, *, #95, .F. ) ;
#38 = DIRECTION ( 'NONE',  ( 0.000000000000000000, 0.000000000000000000, 1.000000000000000000 ) ) ;
#39 = ORIENTED_EDGE ( 'NONE', *, *, #278, .T. ) ;
#40 = CARTESIAN_POINT ( 'NONE',  ( -3.000000000000000000, 5.000000000000000000, 0.000000000000000000 ) ) ;
#41 = ORIENTED_EDGE ( 'NONE', *, *, #156, .T. ) ;
#42 = DIRECTION ( 'NONE',  ( 0.000000000000000000, 0.000000000000000000, -1.000000000000000000 ) ) ;
#43 = FACE_OUTER_BOUND ( 'NONE', #324, .T. ) ;
#44 = CIRCLE ( 'NONE', #162, 12.69999999999999929 ) ;
#45 =( GEOMETRIC_REPRESENTATION_CONTEXT ( 3 ) GLOBAL_UNCERTAINTY_ASSIGNED_CONTEXT ( ( #319 ) ) GLOBAL_UNIT_ASSIGNED_CONTEXT ( ( #264, #183, #80 ) ) REPRESENTATION_CONTEXT ( 'NONE', 'WORKASPACE' ) );
#46 = DIRECTION ( 'NONE',  ( 0.000000000000000000, 0.000000000000000000, 1.000000000000000000 ) ) ;
#47 = APPROVAL ( #315, 'UNSPECIFIED' ) ;
#48 = ADVANCED_BREP_SHAPE_REPRESENTATION ( 'Q-QZWP-R4-10-488-M', ( #190, #18 ), #45 ) ;
#49 = SECURITY_CLASSIFICATION_LEVEL ( 'unclassified' ) ;
#50 = CIRCLE ( 'NONE', #243, 12.69999999999999929 ) ;
#51 = EDGE_CURVE ( 'NONE', #123, #16, #141, .T. ) ;
#52 = PERSON_AND_ORGANIZATION ( #268, #206 ) ;
#53 = PRODUCT_RELATED_PRODUCT_CATEGORY ( 'detail', '', ( #290 ) ) ;
#54 = DATE_AND_TIME ( #55, #291 ) ;
#55 = CALENDAR_DATE ( 2020, 23, 12 ) ;
#56 = AXIS2_PLACEMENT_3D ( 'NONE', #331, #131, #231 ) ;
#57 = DIRECTION ( 'NONE',  ( -1.000000000000000000, -0.000000000000000000, -0.000000000000000000 ) ) ;
#58 = EDGE_CURVE ( 'NONE', #304, #19, #50, .T. ) ;
#59 = ORIENTED_EDGE ( 'NONE', *, *, #278, .F. ) ;
#60 = CALENDAR_DATE ( 2020, 23, 12 ) ;
#61 = DIRECTION ( 'NONE',  ( 0.000000000000000000, 0.000000000000000000, 1.000000000000000000 ) ) ;
#62 = EDGE_LOOP ( 'NONE', ( #168, #224 ) ) ;
#63 = ORIENTED_EDGE ( 'NONE', *, *, #51, .F. ) ;
#64 = EDGE_LOOP ( 'NONE', ( #144, #193 ) ) ;
#65 = FACE_OUTER_BOUND ( 'NONE', #119, .T. ) ;
#66 = ADVANCED_FACE ( 'NONE', ( #197 ), #143, .F. ) ;
#67 = VERTEX_POINT ( 'NONE', #321 ) ;
#68 = FACE_OUTER_BOUND ( 'NONE', #326, .T. ) ;
#69 = ORIENTED_EDGE ( 'NONE', *, *, #5, .F. ) ;
#70 = CYLINDRICAL_SURFACE ( 'NONE', #204, 5.000000000000000888 ) ;
#71 = EDGE_CURVE ( 'NONE', #142, #19, #277, .T. ) ;
#72 = PLANE ( 'NONE',  #179 ) ;
#73 = FACE_OUTER_BOUND ( 'NONE', #64, .T. ) ;
#74 = AXIS2_PLACEMENT_3D ( 'NONE', #332, #149, #177 ) ;
#75 = APPROVAL_PERSON_ORGANIZATION ( #9, #47, #25 ) ;
#76 = CARTESIAN_POINT ( 'NONE',  ( -3.000000000000000000, 0.000000000000000000, 0.000000000000000000 ) ) ;
#77 = DATE_AND_TIME ( #311, #7 ) ;
#78 = AXIS2_PLACEMENT_3D ( 'NONE', #275, #91, #294 ) ;
#79 = DIRECTION ( 'NONE',  ( -1.000000000000000000, -0.000000000000000000, -0.000000000000000000 ) ) ;
#80 =( NAMED_UNIT ( * ) SI_UNIT ( $, .STERADIAN. ) SOLID_ANGLE_UNIT ( ) );
#81 = PRODUCT_DEFINITION_SHAPE ( 'NONE', 'NONE',  #103 ) ;
#82 = COORDINATED_UNIVERSAL_TIME_OFFSET ( 8, 0, .AHEAD. ) ;
#83 = PERSON_AND_ORGANIZATION_ROLE ( 'design_supplier' ) ;
#84 = CARTESIAN_POINT ( 'NONE',  ( -1.614212418857619014, 0.000000000000000000, 5.000000000000000888 ) ) ;
#85 = LOCAL_TIME ( 9, 22, 1.000000000000000000, #138 ) ;
#86 = ORIENTED_EDGE ( 'NONE', *, *, #156, .F. ) ;
#87 = CYLINDRICAL_SURFACE ( 'NONE', #259, 12.69999999999999929 ) ;
#88 = DIRECTION ( 'NONE',  ( -1.000000000000000000, -0.000000000000000000, -0.000000000000000000 ) ) ;
#89 = CIRCLE ( 'NONE', #74, 5.000000000000000000 ) ;
#90 = ORIENTED_EDGE ( 'NONE', *, *, #159, .T. ) ;
#91 = DIRECTION ( 'NONE',  ( -1.000000000000000000, 0.000000000000000000, -0.000000000000000000 ) ) ;
#92 = PRODUCT_DEFINITION_FORMATION_WITH_SPECIFIED_SOURCE ( 'ANY', '', #290, .NOT_KNOWN. ) ;
#93 = AXIS2_PLACEMENT_3D ( 'NONE', #200, #176, #284 ) ;
#94 = ORIENTED_EDGE ( 'NONE', *, *, #211, .T. ) ;
#95 = EDGE_CURVE ( 'NONE', #19, #304, #318, .T. ) ;
#96 = CARTESIAN_POINT ( 'NONE',  ( -1.614212418857619014, 6.123233995736767268E-16, -5.000000000000000888 ) ) ;
#97 = EDGE_LOOP ( 'NONE', ( #59, #221, #279, #90 ) ) ;
#98 = DIRECTION ( 'NONE',  ( -1.000000000000000000, -0.000000000000000000, -0.000000000000000000 ) ) ;
#99 = DIRECTION ( 'NONE',  ( 0.000000000000000000, 0.000000000000000000, 1.000000000000000000 ) ) ;
#100 = EDGE_CURVE ( 'NONE', #123, #249, #312, .T. ) ;
#101 = CARTESIAN_POINT ( 'NONE',  ( -1.250000000000000222, 0.000000000000000000, 0.000000000000000000 ) ) ;
#102 = CARTESIAN_POINT ( 'NONE',  ( -3.000000000000000000, 0.000000000000000000, 12.69999999999999929 ) ) ;
#103 = PRODUCT_DEFINITION ( 'UNKNOWN', '', #92, #157 ) ;
#104 = DIRECTION ( 'NONE',  ( 1.000000000000000000, 0.000000000000000000, 0.000000000000000000 ) ) ;
#105 = LOCAL_TIME ( 9, 22, 1.000000000000000000, #82 ) ;
#106 = APPLICATION_PROTOCOL_DEFINITION ( 'international standard', 'config_control_design', 1994, #232 ) ;
#107 = APPROVAL_DATE_TIME ( #111, #47 ) ;
#108 = CIRCLE ( 'NONE', #93, 5.000000000000000888 ) ;
#109 = EDGE_CURVE ( 'NONE', #150, #32, #217, .T. ) ;
#110 = CALENDAR_DATE ( 2020, 23, 12 ) ;
#111 = DATE_AND_TIME ( #137, #105 ) ;
#112 = VECTOR ( 'NONE', #57, 1000.000000000000000 ) ;
#113 = ADVANCED_FACE ( 'NONE', ( #120 ), #323, .T. ) ;
#114 = LINE ( 'NONE', #96, #229 ) ;
#115 = CC_DESIGN_DATE_AND_TIME_ASSIGNMENT ( #54, #265, ( #103 ) ) ;
#116 = DIRECTION ( 'NONE',  ( -1.000000000000000000, -0.000000000000000000, -0.000000000000000000 ) ) ;
#117 = ORIENTED_EDGE ( 'NONE', *, *, #314, .F. ) ;
#118 = CARTESIAN_POINT ( 'NONE',  ( -1.250000000000000222, 0.000000000000000000, 5.000000000000000888 ) ) ;
#119 = EDGE_LOOP ( 'NONE', ( #247, #39, #295, #63 ) ) ;
#120 = FACE_OUTER_BOUND ( 'NONE', #322, .T. ) ;
#121 = ADVANCED_FACE ( 'NONE', ( #303 ), #87, .T. ) ;
#122 = AXIS2_PLACEMENT_3D ( 'NONE', #270, #195, #300 ) ;
#123 = VERTEX_POINT ( 'NONE', #250 ) ;
#124 = CYLINDRICAL_SURFACE ( 'NONE', #140, 5.000000000000000888 ) ;
#125 = APPROVAL_PERSON_ORGANIZATION ( #160, #233, #134 ) ;
#126 = CYLINDRICAL_SURFACE ( 'NONE', #56, 5.000000000000000888 ) ;
#127 = VECTOR ( 'NONE', #273, 1000.000000000000000 ) ;
#128 = FACE_OUTER_BOUND ( 'NONE', #97, .T. ) ;
#129 = EDGE_CURVE ( 'NONE', #249, #123, #26, .T. ) ;
#130 = DIRECTION ( 'NONE',  ( -1.000000000000000000, -0.000000000000000000, -0.000000000000000000 ) ) ;
#131 = DIRECTION ( 'NONE',  ( -1.000000000000000000, -0.000000000000000000, -0.000000000000000000 ) ) ;
#132 = PERSON_AND_ORGANIZATION_ROLE ( 'creator' ) ;
#133 = APPROVAL_DATE_TIME ( #317, #233 ) ;
#134 = APPROVAL_ROLE ( '' ) ;
#135 = AXIS2_PLACEMENT_3D ( 'NONE', #309, #98, #230 ) ;
#136 = SECURITY_CLASSIFICATION ( '', '', #49 ) ;
#137 = CALENDAR_DATE ( 2020, 23, 12 ) ;
#138 = COORDINATED_UNIVERSAL_TIME_OFFSET ( 8, 0, .AHEAD. ) ;
#139 = DIRECTION ( 'NONE',  ( -1.000000000000000000, 0.000000000000000000, -0.000000000000000000 ) ) ;
#140 = AXIS2_PLACEMENT_3D ( 'NONE', #36, #252, #297 ) ;
#141 = LINE ( 'NONE', #15, #262 ) ;
#142 = VERTEX_POINT ( 'NONE', #17 ) ;
#143 = PLANE ( 'NONE',  #78 ) ;
#144 = ORIENTED_EDGE ( 'NONE', *, *, #208, .F. ) ;
#145 = DIRECTION ( 'NONE',  ( -1.000000000000000000, -0.000000000000000000, -0.000000000000000000 ) ) ;
#146 = ADVANCED_FACE ( 'NONE', ( #68, #13 ), #246, .F. ) ;
#147 = ORIENTED_EDGE ( 'NONE', *, *, #71, .T. ) ;
#148 = DIRECTION ( 'NONE',  ( -1.000000000000000000, -0.000000000000000000, -0.000000000000000000 ) ) ;
#149 = DIRECTION ( 'NONE',  ( -1.000000000000000000, -0.000000000000000000, -0.000000000000000000 ) ) ;
#150 = VERTEX_POINT ( 'NONE', #118 ) ;
#151 = CARTESIAN_POINT ( 'NONE',  ( 3.000000000000000000, 6.123233995736768255E-16, -5.000000000000001776 ) ) ;
#152 = DIRECTION ( 'NONE',  ( 0.000000000000000000, 0.000000000000000000, 1.000000000000000000 ) ) ;
#153 = CIRCLE ( 'NONE', #223, 12.69999999999999929 ) ;
#154 = CARTESIAN_POINT ( 'NONE',  ( -1.250000000000000222, 5.000000000000000000, 0.000000000000000000 ) ) ;
#155 = CARTESIAN_POINT ( 'NONE',  ( -1.614212418857619014, 0.000000000000000000, 0.000000000000000000 ) ) ;
#156 = EDGE_CURVE ( 'NONE', #142, #67, #44, .T. ) ;
#157 = DESIGN_CONTEXT ( 'detailed design', #271, 'design' ) ;
#158 = APPROVAL_STATUS ( 'not_yet_approved' ) ;
#159 = EDGE_CURVE ( 'NONE', #16, #301, #296, .T. ) ;
#160 = PERSON_AND_ORGANIZATION ( #268, #206 ) ;
#161 = COORDINATED_UNIVERSAL_TIME_OFFSET ( 8, 0, .AHEAD. ) ;
#162 = AXIS2_PLACEMENT_3D ( 'NONE', #11, #22, #334 ) ;
#163 = CC_DESIGN_PERSON_AND_ORGANIZATION_ASSIGNMENT ( #241, #181, ( #290 ) ) ;
#164 = CARTESIAN_POINT ( 'NONE',  ( 1.250000000000000444, 0.000000000000000000, 5.000000000000000000 ) ) ;
#165 = VECTOR ( 'NONE', #187, 1000.000000000000000 ) ;
#166 = ORIENTED_EDGE ( 'NONE', *, *, #211, .F. ) ;
#167 = DIRECTION ( 'NONE',  ( -1.000000000000000000, -0.000000000000000000, -0.000000000000000000 ) ) ;
#168 = ORIENTED_EDGE ( 'NONE', *, *, #100, .T. ) ;
#169 = DIRECTION ( 'NONE',  ( -1.000000000000000000, -0.000000000000000000, -0.000000000000000000 ) ) ;
#170 = ORIENTED_EDGE ( 'NONE', *, *, #5, .T. ) ;
#171 = CARTESIAN_POINT ( 'NONE',  ( 3.000000000000000000, 0.000000000000000000, 0.000000000000000000 ) ) ;
#172 = EDGE_LOOP ( 'NONE', ( #188, #117 ) ) ;
#173 = DIRECTION ( 'NONE',  ( 0.000000000000000000, 0.000000000000000000, 1.000000000000000000 ) ) ;
#174 = ORIENTED_EDGE ( 'NONE', *, *, #184, .F. ) ;
#175 = CC_DESIGN_PERSON_AND_ORGANIZATION_ASSIGNMENT ( #234, #3, ( #136 ) ) ;
#176 = DIRECTION ( 'NONE',  ( 1.000000000000000000, 0.000000000000000000, 0.000000000000000000 ) ) ;
#177 = DIRECTION ( 'NONE',  ( 0.000000000000000000, 0.000000000000000000, 1.000000000000000000 ) ) ;
#178 = AXIS2_PLACEMENT_3D ( 'NONE', #101, #104, #42 ) ;
#179 = AXIS2_PLACEMENT_3D ( 'NONE', #154, #287, #21 ) ;
#180 = DIRECTION ( 'NONE',  ( -1.000000000000000000, -0.000000000000000000, -0.000000000000000000 ) ) ;
#181 = PERSON_AND_ORGANIZATION_ROLE ( 'design_owner' ) ;
#182 = DIRECTION ( 'NONE',  ( 1.000000000000000000, 0.000000000000000000, 0.000000000000000000 ) ) ;
#183 =( NAMED_UNIT ( * ) PLANE_ANGLE_UNIT ( ) SI_UNIT ( $, .RADIAN. ) );
#184 = EDGE_CURVE ( 'NONE', #32, #215, #89, .T. ) ;
#185 = VECTOR ( 'NONE', #203, 1000.000000000000000 ) ;
#186 = APPROVAL_DATE_TIME ( #244, #310 ) ;
#187 = DIRECTION ( 'NONE',  ( -1.000000000000000000, -0.000000000000000000, -0.000000000000000000 ) ) ;
#188 = ORIENTED_EDGE ( 'NONE', *, *, #159, .F. ) ;
#189 = DIRECTION ( 'NONE',  ( -1.000000000000000000, -0.000000000000000000, -0.000000000000000000 ) ) ;
#190 = MANIFOLD_SOLID_BREP ( 'Ðý×', #29 ) ;
#191 = ADVANCED_FACE ( 'NONE', ( #282 ), #20, .F. ) ;
#192 = CARTESIAN_POINT ( 'NONE',  ( -3.000000000000000000, 0.000000000000000000, 5.000000000000000000 ) ) ;
#193 = ORIENTED_EDGE ( 'NONE', *, *, #225, .F. ) ;
#194 = AXIS2_PLACEMENT_3D ( 'NONE', #76, #180, #260 ) ;
#195 = DIRECTION ( 'NONE',  ( -1.000000000000000000, -0.000000000000000000, -0.000000000000000000 ) ) ;
#196 = ORIENTED_EDGE ( 'NONE', *, *, #184, .T. ) ;
#197 = FACE_OUTER_BOUND ( 'NONE', #172, .T. ) ;
#198 = EDGE_LOOP ( 'NONE', ( #298, #170, #276, #293 ) ) ;
#199 = CARTESIAN_POINT ( 'NONE',  ( -3.000000000000000000, 6.123233995736766282E-16, -5.000000000000000000 ) ) ;
#200 = CARTESIAN_POINT ( 'NONE',  ( -1.250000000000000222, 0.000000000000000000, 0.000000000000000000 ) ) ;
#201 = CC_DESIGN_APPROVAL ( #310, ( #136 ) ) ;
#202 = PLANE ( 'NONE',  #212 ) ;
#203 = DIRECTION ( 'NONE',  ( -1.000000000000000000, -0.000000000000000000, -0.000000000000000000 ) ) ;
#204 = AXIS2_PLACEMENT_3D ( 'NONE', #155, #1, #99 ) ;
#205 = CARTESIAN_POINT ( 'NONE',  ( -1.614212418857619014, 6.123233995736767268E-16, -5.000000000000000888 ) ) ;
#206 = ORGANIZATION ( 'UNSPECIFIED', 'UNSPECIFIED', '' ) ;
#207 = COORDINATED_UNIVERSAL_TIME_OFFSET ( 8, 0, .AHEAD. ) ;
#208 = EDGE_CURVE ( 'NONE', #150, #12, #327, .T. ) ;
#209 = APPROVAL_STATUS ( 'not_yet_approved' ) ;
#210 = DIRECTION ( 'NONE',  ( 0.000000000000000000, 0.000000000000000000, 1.000000000000000000 ) ) ;
#211 = EDGE_CURVE ( 'NONE', #67, #142, #153, .T. ) ;
#212 = AXIS2_PLACEMENT_3D ( 'NONE', #40, #255, #307 ) ;
#213 = PERSON_AND_ORGANIZATION ( #268, #206 ) ;
#214 = CARTESIAN_POINT ( 'NONE',  ( -3.000000000000000000, 0.000000000000000000, 0.000000000000000000 ) ) ;
#215 = VERTEX_POINT ( 'NONE', #199 ) ;
#216 = APPROVAL_PERSON_ORGANIZATION ( #52, #310, #236 ) ;
#217 = LINE ( 'NONE', #84, #165 ) ;
#218 = ADVANCED_FACE ( 'NONE', ( #128 ), #70, .F. ) ;
#219 = ORIENTED_EDGE ( 'NONE', *, *, #225, .T. ) ;
#220 = DIRECTION ( 'NONE',  ( 0.000000000000000000, 0.000000000000000000, 1.000000000000000000 ) ) ;
#221 = ORIENTED_EDGE ( 'NONE', *, *, #100, .F. ) ;
#222 = CARTESIAN_POINT ( 'NONE',  ( -1.614212418857619014, 0.000000000000000000, 0.000000000000000000 ) ) ;
#223 = AXIS2_PLACEMENT_3D ( 'NONE', #257, #130, #152 ) ;
#224 = ORIENTED_EDGE ( 'NONE', *, *, #129, .T. ) ;
#225 = EDGE_CURVE ( 'NONE', #12, #150, #108, .T. ) ;
#226 = AXIS2_PLACEMENT_3D ( 'NONE', #263, #79, #237 ) ;
#227 = DIRECTION ( 'NONE',  ( 0.000000000000000000, 0.000000000000000000, 1.000000000000000000 ) ) ;
#228 = ORIENTED_EDGE ( 'NONE', *, *, #95, .T. ) ;
#229 = VECTOR ( 'NONE', #88, 1000.000000000000000 ) ;
#230 = DIRECTION ( 'NONE',  ( 0.000000000000000000, 0.000000000000000000, 1.000000000000000000 ) ) ;
#231 = DIRECTION ( 'NONE',  ( 0.000000000000000000, 0.000000000000000000, 1.000000000000000000 ) ) ;
#232 = APPLICATION_CONTEXT ( 'configuration controlled 3d designs of mechanical parts and assemblies' ) ;
#233 = APPROVAL ( #209, 'UNSPECIFIED' ) ;
#234 = PERSON_AND_ORGANIZATION ( #268, #206 ) ;
#235 = CC_DESIGN_SECURITY_CLASSIFICATION ( #136, ( #92 ) ) ;
#236 = APPROVAL_ROLE ( '' ) ;
#237 = DIRECTION ( 'NONE',  ( 0.000000000000000000, 0.000000000000000000, 1.000000000000000000 ) ) ;
#238 = PERSON_AND_ORGANIZATION_ROLE ( 'creator' ) ;
#239 = CC_DESIGN_APPROVAL ( #47, ( #103 ) ) ;
#240 = ADVANCED_FACE ( 'NONE', ( #283, #43 ), #202, .F. ) ;
#241 = PERSON_AND_ORGANIZATION ( #268, #206 ) ;
#242 = CC_DESIGN_PERSON_AND_ORGANIZATION_ASSIGNMENT ( #213, #132, ( #92 ) ) ;
#243 = AXIS2_PLACEMENT_3D ( 'NONE', #292, #169, #61 ) ;
#244 = DATE_AND_TIME ( #60, #85 ) ;
#245 = CARTESIAN_POINT ( 'NONE',  ( -1.614212418857619014, 0.000000000000000000, 0.000000000000000000 ) ) ;
#246 = PLANE ( 'NONE',  #285 ) ;
#247 = ORIENTED_EDGE ( 'NONE', *, *, #129, .F. ) ;
#248 = CARTESIAN_POINT ( 'NONE',  ( -1.614212418857619014, 1.555301434917138433E-15, -12.69999999999999929 ) ) ;
#249 = VERTEX_POINT ( 'NONE', #151 ) ;
#250 = CARTESIAN_POINT ( 'NONE',  ( 3.000000000000000000, 0.000000000000000000, 5.000000000000001776 ) ) ;
#251 = ORIENTED_EDGE ( 'NONE', *, *, #8, .T. ) ;
#252 = DIRECTION ( 'NONE',  ( -1.000000000000000000, -0.000000000000000000, -0.000000000000000000 ) ) ;
#253 = ORIENTED_EDGE ( 'NONE', *, *, #8, .F. ) ;
#254 = CIRCLE ( 'NONE', #226, 5.000000000000000000 ) ;
#255 = DIRECTION ( 'NONE',  ( 1.000000000000000000, 0.000000000000000000, 0.000000000000000000 ) ) ;
#256 = ORIENTED_EDGE ( 'NONE', *, *, #109, .T. ) ;
#257 = CARTESIAN_POINT ( 'NONE',  ( 3.000000000000000000, 0.000000000000000000, 0.000000000000000000 ) ) ;
#258 = ADVANCED_FACE ( 'NONE', ( #73 ), #72, .F. ) ;
#259 = AXIS2_PLACEMENT_3D ( 'NONE', #222, #148, #227 ) ;
#260 = DIRECTION ( 'NONE',  ( 0.000000000000000000, 0.000000000000000000, 1.000000000000000000 ) ) ;
#261 = LINE ( 'NONE', #205, #185 ) ;
#262 = VECTOR ( 'NONE', #189, 1000.000000000000000 ) ;
#263 = CARTESIAN_POINT ( 'NONE',  ( 1.250000000000000444, 0.000000000000000000, 0.000000000000000000 ) ) ;
#264 =( LENGTH_UNIT ( ) NAMED_UNIT ( * ) SI_UNIT ( .MILLI., .METRE. ) );
#265 = DATE_TIME_ROLE ( 'creation_date' ) ;
#266 = CARTESIAN_POINT ( 'NONE',  ( 0.000000000000000000, 0.000000000000000000, 0.000000000000000000 ) ) ;
#267 = AXIS2_PLACEMENT_3D ( 'NONE', #306, #305, #46 ) ;
#268 = PERSON ( 'UNSPECIFIED', 'UNSPECIFIED', 'UNSPECIFIED', ('UNSPECIFIED'), ('UNSPECIFIED'), ('UNSPECIFIED') ) ;
#269 = AXIS2_PLACEMENT_3D ( 'NONE', #214, #167, #173 ) ;
#270 = CARTESIAN_POINT ( 'NONE',  ( 3.000000000000000000, 0.000000000000000000, 0.000000000000000000 ) ) ;
#271 = APPLICATION_CONTEXT ( 'configuration controlled 3d designs of mechanical parts and assemblies' ) ;
#272 = EDGE_LOOP ( 'NONE', ( #35, #41, #251, #37 ) ) ;
#273 = DIRECTION ( 'NONE',  ( -1.000000000000000000, -0.000000000000000000, -0.000000000000000000 ) ) ;
#274 = ORIENTED_EDGE ( 'NONE', *, *, #288, .F. ) ;
#275 = CARTESIAN_POINT ( 'NONE',  ( 1.250000000000000222, 5.000000000000000000, 0.000000000000000000 ) ) ;
#276 = ORIENTED_EDGE ( 'NONE', *, *, #288, .T. ) ;
#277 = LINE ( 'NONE', #248, #127 ) ;
#278 = EDGE_CURVE ( 'NONE', #249, #301, #261, .T. ) ;
#279 = ORIENTED_EDGE ( 'NONE', *, *, #51, .T. ) ;
#280 = CARTESIAN_POINT ( 'NONE',  ( 3.000000000000000000, 12.69999999999999929, 0.000000000000000000 ) ) ;
#281 = EDGE_LOOP ( 'NONE', ( #69, #219, #256, #196 ) ) ;
#282 = FACE_OUTER_BOUND ( 'NONE', #281, .T. ) ;
#283 = FACE_BOUND ( 'NONE', #328, .T. ) ;
#284 = DIRECTION ( 'NONE',  ( 0.000000000000000000, 0.000000000000000000, -1.000000000000000000 ) ) ;
#285 = AXIS2_PLACEMENT_3D ( 'NONE', #280, #139, #10 ) ;
#286 = LOCAL_TIME ( 9, 22, 1.000000000000000000, #6 ) ;
#287 = DIRECTION ( 'NONE',  ( 1.000000000000000000, 0.000000000000000000, 0.000000000000000000 ) ) ;
#288 = EDGE_CURVE ( 'NONE', #215, #32, #308, .T. ) ;
#289 = DATE_TIME_ROLE ( 'classification_date' ) ;
#290 = PRODUCT ( 'Q-QZWP-R4-10-488-M', 'Q-QZWP-R4-10-488-M', '', ( #4 ) ) ;
#291 = LOCAL_TIME ( 9, 22, 1.000000000000000000, #161 ) ;
#292 = CARTESIAN_POINT ( 'NONE',  ( -3.000000000000000000, 0.000000000000000000, 0.000000000000000000 ) ) ;
#293 = ORIENTED_EDGE ( 'NONE', *, *, #109, .F. ) ;
#294 = DIRECTION ( 'NONE',  ( -0.000000000000000000, 0.000000000000000000, 1.000000000000000000 ) ) ;
#295 = ORIENTED_EDGE ( 'NONE', *, *, #314, .T. ) ;
#296 = CIRCLE ( 'NONE', #267, 5.000000000000000000 ) ;
#297 = DIRECTION ( 'NONE',  ( 0.000000000000000000, 0.000000000000000000, 1.000000000000000000 ) ) ;
#298 = ORIENTED_EDGE ( 'NONE', *, *, #208, .T. ) ;
#299 = ADVANCED_FACE ( 'NONE', ( #23 ), #126, .F. ) ;
#300 = DIRECTION ( 'NONE',  ( 0.000000000000000000, 0.000000000000000000, 1.000000000000000000 ) ) ;
#301 = VERTEX_POINT ( 'NONE', #335 ) ;
#302 = AXIS2_PLACEMENT_3D ( 'NONE', #171, #116, #38 ) ;
#303 = FACE_OUTER_BOUND ( 'NONE', #272, .T. ) ;
#304 = VERTEX_POINT ( 'NONE', #102 ) ;
#305 = DIRECTION ( 'NONE',  ( -1.000000000000000000, -0.000000000000000000, -0.000000000000000000 ) ) ;
#306 = CARTESIAN_POINT ( 'NONE',  ( 1.250000000000000444, 0.000000000000000000, 0.000000000000000000 ) ) ;
#307 = DIRECTION ( 'NONE',  ( 0.000000000000000000, 0.000000000000000000, -1.000000000000000000 ) ) ;
#308 = CIRCLE ( 'NONE', #194, 5.000000000000000000 ) ;
#309 = CARTESIAN_POINT ( 'NONE',  ( -1.614212418857619014, 0.000000000000000000, 0.000000000000000000 ) ) ;
#310 = APPROVAL ( #158, 'UNSPECIFIED' ) ;
#311 = CALENDAR_DATE ( 2020, 23, 12 ) ;
#312 = CIRCLE ( 'NONE', #302, 5.000000000000001776 ) ;
#313 = PERSON_AND_ORGANIZATION ( #268, #206 ) ;
#314 = EDGE_CURVE ( 'NONE', #301, #16, #254, .T. ) ;
#315 = APPROVAL_STATUS ( 'not_yet_approved' ) ;
#316 = CC_DESIGN_PERSON_AND_ORGANIZATION_ASSIGNMENT ( #313, #238, ( #103 ) ) ;
#317 = DATE_AND_TIME ( #110, #286 ) ;
#318 = CIRCLE ( 'NONE', #269, 12.69999999999999929 ) ;
#319 = UNCERTAINTY_MEASURE_WITH_UNIT (LENGTH_MEASURE( 1.000000000000000082E-05 ), #264, 'distance_accuracy_value', 'NONE');
#320 = PERSON_AND_ORGANIZATION ( #268, #206 ) ;
#321 = CARTESIAN_POINT ( 'NONE',  ( 3.000000000000000000, 0.000000000000000000, 12.69999999999999929 ) ) ;
#322 = EDGE_LOOP ( 'NONE', ( #94, #147, #330, #253 ) ) ;
#323 = CYLINDRICAL_SURFACE ( 'NONE', #24, 12.69999999999999929 ) ;
#324 = EDGE_LOOP ( 'NONE', ( #14, #228 ) ) ;
#325 = CARTESIAN_POINT ( 'NONE',  ( -1.250000000000000222, 6.123233995736767268E-16, -5.000000000000000888 ) ) ;
#326 = EDGE_LOOP ( 'NONE', ( #166, #86 ) ) ;
#327 = CIRCLE ( 'NONE', #178, 5.000000000000000888 ) ;
#328 = EDGE_LOOP ( 'NONE', ( #174, #274 ) ) ;
#329 = CARTESIAN_POINT ( 'NONE',  ( -3.000000000000000000, 1.555301434917138433E-15, -12.69999999999999929 ) ) ;
#330 = ORIENTED_EDGE ( 'NONE', *, *, #58, .F. ) ;
#331 = CARTESIAN_POINT ( 'NONE',  ( -1.614212418857619014, 0.000000000000000000, 0.000000000000000000 ) ) ;
#332 = CARTESIAN_POINT ( 'NONE',  ( -3.000000000000000000, 0.000000000000000000, 0.000000000000000000 ) ) ;
#333 = CC_DESIGN_DATE_AND_TIME_ASSIGNMENT ( #77, #289, ( #136 ) ) ;
#334 = DIRECTION ( 'NONE',  ( 0.000000000000000000, 0.000000000000000000, 1.000000000000000000 ) ) ;
#335 = CARTESIAN_POINT ( 'NONE',  ( 1.250000000000000444, 6.123233995736766282E-16, -5.000000000000000000 ) ) ;
ENDSEC;
END-ISO-10303-21;
